ISO-10303-21;
HEADER;
FILE_DESCRIPTION(('CATIA V5 STEP Exchange'),'2;1');

FILE_NAME('\\\\stisrv.epfl.ch\\sti-sgm\\sgm-ens\\soubiell\\Enseignement\\ME-101-106 - Construction M\X2\00E9\X0\canique I\\1. Supports de cours\\SW1\\Fichiers sources et illustrations\\Dessin Technique - Introduction - Mod\X2\00E8\X0\les 3D CATIA (exercice 2)\\EXERCICE 2 - PIECE C.stp','2023-10-16T12:12:43+00:00',('none'),('none'),'CATIA Unofficial Packaging Version SP3','CATIA V5 STEP AP203','none');

FILE_SCHEMA(('CONFIG_CONTROL_DESIGN'));

ENDSEC;
DATA;
#5=PRODUCT('EXERCICE 2 - PIECE C','','',(#2)) ;
#1=APPLICATION_CONTEXT('configuration controlled 3D design of mechanical parts and assemblies') ;
#14=PRODUCT_DEFINITION('',' ',#6,#3) ;
#16=SECURITY_CLASSIFICATION(' ',' ',#15) ;
#15=SECURITY_CLASSIFICATION_LEVEL('unclassified') ;
#46=CARTESIAN_POINT(' ',(0.,0.,0.)) ;
#51=CARTESIAN_POINT('Axis2P3D Location',(0.,25.,20.)) ;
#56=CARTESIAN_POINT('Line Origine',(-25.,12.5,25.)) ;
#60=CARTESIAN_POINT('Vertex',(-25.,-7.1054273576E-015,30.)) ;
#62=CARTESIAN_POINT('Vertex',(-25.,25.,20.)) ;
#65=CARTESIAN_POINT('Line Origine',(-12.5,-7.1054273576E-015,30.)) ;
#69=CARTESIAN_POINT('Vertex',(0.,0.,30.)) ;
#72=CARTESIAN_POINT('Line Origine',(0.,12.5,25.)) ;
#76=CARTESIAN_POINT('Vertex',(0.,25.,20.)) ;
#79=CARTESIAN_POINT('Line Origine',(-12.5,25.,20.)) ;
#91=CARTESIAN_POINT('Axis2P3D Location',(0.,25.,0.)) ;
#96=CARTESIAN_POINT('Line Origine',(0.,25.,17.5)) ;
#100=CARTESIAN_POINT('Vertex',(0.,25.,15.)) ;
#103=CARTESIAN_POINT('Line Origine',(-5.,25.,15.)) ;
#107=CARTESIAN_POINT('Vertex',(-10.,25.,15.)) ;
#110=CARTESIAN_POINT('Line Origine',(-10.,25.,7.5)) ;
#114=CARTESIAN_POINT('Vertex',(-10.,25.,0.)) ;
#117=CARTESIAN_POINT('Line Origine',(-17.5,25.,0.)) ;
#121=CARTESIAN_POINT('Vertex',(-25.,25.,0.)) ;
#124=CARTESIAN_POINT('Line Origine',(-25.,25.,10.)) ;
#138=CARTESIAN_POINT('Axis2P3D Location',(0.,0.,30.)) ;
#143=CARTESIAN_POINT('Line Origine',(0.,0.,22.5)) ;
#147=CARTESIAN_POINT('Vertex',(0.,0.,15.)) ;
#150=CARTESIAN_POINT('Line Origine',(0.,12.5,15.)) ;
#162=CARTESIAN_POINT('Axis2P3D Location',(0.,0.,15.)) ;
#167=CARTESIAN_POINT('Line Origine',(-5.,0.,15.)) ;
#171=CARTESIAN_POINT('Vertex',(-10.,0.,15.)) ;
#174=CARTESIAN_POINT('Line Origine',(-10.,12.5,15.)) ;
#186=CARTESIAN_POINT('Axis2P3D Location',(-10.,0.,15.)) ;
#191=CARTESIAN_POINT('Line Origine',(-10.,0.,7.5)) ;
#195=CARTESIAN_POINT('Vertex',(-10.,0.,0.)) ;
#198=CARTESIAN_POINT('Line Origine',(-10.,12.5,0.)) ;
#210=CARTESIAN_POINT('Axis2P3D Location',(-10.,0.,0.)) ;
#215=CARTESIAN_POINT('Line Origine',(-17.5,0.,0.)) ;
#219=CARTESIAN_POINT('Vertex',(-25.,0.,0.)) ;
#222=CARTESIAN_POINT('Line Origine',(-25.,12.5,0.)) ;
#234=CARTESIAN_POINT('Axis2P3D Location',(-25.,0.,0.)) ;
#239=CARTESIAN_POINT('Line Origine',(-25.,0.,15.)) ;
#251=CARTESIAN_POINT('Axis2P3D Location',(0.,0.,0.)) ;
#52=DIRECTION('Axis2P3D Direction',(-0.,-0.371390676354,-0.928476690885)) ;
#53=DIRECTION('Axis2P3D XDirection',(0.,-0.928476690885,0.371390676354)) ;
#57=DIRECTION('Vector Direction',(2.63888947212E-016,0.928476690885,-0.371390676354)) ;
#66=DIRECTION('Vector Direction',(-1.,0.,0.)) ;
#73=DIRECTION('Vector Direction',(0.,-0.928476690885,0.371390676354)) ;
#80=DIRECTION('Vector Direction',(-1.,0.,0.)) ;
#92=DIRECTION('Axis2P3D Direction',(0.,1.,-0.)) ;
#93=DIRECTION('Axis2P3D XDirection',(-1.,0.,0.)) ;
#97=DIRECTION('Vector Direction',(0.,0.,-1.)) ;
#104=DIRECTION('Vector Direction',(-1.,0.,0.)) ;
#111=DIRECTION('Vector Direction',(0.,0.,-1.)) ;
#118=DIRECTION('Vector Direction',(-1.,0.,0.)) ;
#125=DIRECTION('Vector Direction',(0.,0.,1.)) ;
#139=DIRECTION('Axis2P3D Direction',(1.,-0.,0.)) ;
#140=DIRECTION('Axis2P3D XDirection',(0.,0.,-1.)) ;
#144=DIRECTION('Vector Direction',(0.,0.,-1.)) ;
#151=DIRECTION('Vector Direction',(0.,1.,0.)) ;
#163=DIRECTION('Axis2P3D Direction',(0.,0.,-1.)) ;
#164=DIRECTION('Axis2P3D XDirection',(-1.,0.,0.)) ;
#168=DIRECTION('Vector Direction',(-1.,0.,0.)) ;
#175=DIRECTION('Vector Direction',(0.,1.,0.)) ;
#187=DIRECTION('Axis2P3D Direction',(1.,-0.,0.)) ;
#188=DIRECTION('Axis2P3D XDirection',(0.,0.,-1.)) ;
#192=DIRECTION('Vector Direction',(0.,0.,-1.)) ;
#199=DIRECTION('Vector Direction',(0.,1.,0.)) ;
#211=DIRECTION('Axis2P3D Direction',(0.,0.,-1.)) ;
#212=DIRECTION('Axis2P3D XDirection',(-1.,0.,0.)) ;
#216=DIRECTION('Vector Direction',(-1.,0.,0.)) ;
#223=DIRECTION('Vector Direction',(0.,1.,0.)) ;
#235=DIRECTION('Axis2P3D Direction',(-1.,0.,0.)) ;
#236=DIRECTION('Axis2P3D XDirection',(0.,0.,1.)) ;
#240=DIRECTION('Vector Direction',(0.,0.,1.)) ;
#252=DIRECTION('Axis2P3D Direction',(0.,1.,-0.)) ;
#253=DIRECTION('Axis2P3D XDirection',(-1.,0.,0.)) ;
#47=AXIS2_PLACEMENT_3D(' ',#46,$,$) ;
#54=AXIS2_PLACEMENT_3D('Plane Axis2P3D',#51,#52,#53) ;
#94=AXIS2_PLACEMENT_3D('Plane Axis2P3D',#91,#92,#93) ;
#141=AXIS2_PLACEMENT_3D('Plane Axis2P3D',#138,#139,#140) ;
#165=AXIS2_PLACEMENT_3D('Plane Axis2P3D',#162,#163,#164) ;
#189=AXIS2_PLACEMENT_3D('Plane Axis2P3D',#186,#187,#188) ;
#213=AXIS2_PLACEMENT_3D('Plane Axis2P3D',#210,#211,#212) ;
#237=AXIS2_PLACEMENT_3D('Plane Axis2P3D',#234,#235,#236) ;
#254=AXIS2_PLACEMENT_3D('Plane Axis2P3D',#251,#252,#253) ;
#40=PRODUCT_DEFINITION_SHAPE(' ',' ',#14) ;
#31=APPROVAL_PERSON_ORGANIZATION(#25,#21,#19) ;
#25=PERSON_AND_ORGANIZATION(#22,#23) ;
#22=PERSON(' ',' ',' ',$,$,$) ;
#23=ORGANIZATION(' ',' ',' ') ;
#21=APPROVAL(#20,' ') ;
#20=APPROVAL_STATUS('not_yet_approved') ;
#19=APPROVAL_ROLE('APPROVER') ;
#13=DATE_AND_TIME(#11,#12) ;
#12=LOCAL_TIME(14,12,43.,#10) ;
#10=COORDINATED_UNIVERSAL_TIME_OFFSET(0,0,.AHEAD.) ;
#85=ORIENTED_EDGE('',*,*,#64,.F.) ;
#86=ORIENTED_EDGE('',*,*,#71,.F.) ;
#87=ORIENTED_EDGE('',*,*,#78,.T.) ;
#88=ORIENTED_EDGE('',*,*,#83,.T.) ;
#130=ORIENTED_EDGE('',*,*,#102,.T.) ;
#131=ORIENTED_EDGE('',*,*,#109,.T.) ;
#132=ORIENTED_EDGE('',*,*,#116,.T.) ;
#133=ORIENTED_EDGE('',*,*,#123,.T.) ;
#134=ORIENTED_EDGE('',*,*,#128,.T.) ;
#135=ORIENTED_EDGE('',*,*,#83,.F.) ;
#156=ORIENTED_EDGE('',*,*,#149,.T.) ;
#157=ORIENTED_EDGE('',*,*,#154,.T.) ;
#158=ORIENTED_EDGE('',*,*,#102,.F.) ;
#159=ORIENTED_EDGE('',*,*,#78,.F.) ;
#180=ORIENTED_EDGE('',*,*,#154,.F.) ;
#181=ORIENTED_EDGE('',*,*,#173,.T.) ;
#182=ORIENTED_EDGE('',*,*,#178,.T.) ;
#183=ORIENTED_EDGE('',*,*,#109,.F.) ;
#204=ORIENTED_EDGE('',*,*,#178,.F.) ;
#205=ORIENTED_EDGE('',*,*,#197,.T.) ;
#206=ORIENTED_EDGE('',*,*,#202,.T.) ;
#207=ORIENTED_EDGE('',*,*,#116,.F.) ;
#228=ORIENTED_EDGE('',*,*,#202,.F.) ;
#229=ORIENTED_EDGE('',*,*,#221,.T.) ;
#230=ORIENTED_EDGE('',*,*,#226,.T.) ;
#231=ORIENTED_EDGE('',*,*,#123,.F.) ;
#245=ORIENTED_EDGE('',*,*,#128,.F.) ;
#246=ORIENTED_EDGE('',*,*,#226,.F.) ;
#247=ORIENTED_EDGE('',*,*,#243,.T.) ;
#248=ORIENTED_EDGE('',*,*,#64,.T.) ;
#257=ORIENTED_EDGE('',*,*,#197,.F.) ;
#258=ORIENTED_EDGE('',*,*,#173,.F.) ;
#259=ORIENTED_EDGE('',*,*,#149,.F.) ;
#260=ORIENTED_EDGE('',*,*,#71,.T.) ;
#261=ORIENTED_EDGE('',*,*,#243,.F.) ;
#262=ORIENTED_EDGE('',*,*,#221,.F.) ;
#50=CLOSED_SHELL('Closed Shell',(#90,#137,#161,#185,#209,#233,#250,#264)) ;
#58=VECTOR('Line Direction',#57,1.) ;
#67=VECTOR('Line Direction',#66,1.) ;
#74=VECTOR('Line Direction',#73,1.) ;
#81=VECTOR('Line Direction',#80,1.) ;
#98=VECTOR('Line Direction',#97,1.) ;
#105=VECTOR('Line Direction',#104,1.) ;
#112=VECTOR('Line Direction',#111,1.) ;
#119=VECTOR('Line Direction',#118,1.) ;
#126=VECTOR('Line Direction',#125,1.) ;
#145=VECTOR('Line Direction',#144,1.) ;
#152=VECTOR('Line Direction',#151,1.) ;
#169=VECTOR('Line Direction',#168,1.) ;
#176=VECTOR('Line Direction',#175,1.) ;
#193=VECTOR('Line Direction',#192,1.) ;
#200=VECTOR('Line Direction',#199,1.) ;
#217=VECTOR('Line Direction',#216,1.) ;
#224=VECTOR('Line Direction',#223,1.) ;
#241=VECTOR('Line Direction',#240,1.) ;
#266=ADVANCED_BREP_SHAPE_REPRESENTATION('NONE',(#265),#45) ;
#48=SHAPE_REPRESENTATION(' ',(#47),#45) ;
#90=ADVANCED_FACE('Corps principal',(#89),#55,.F.) ;
#137=ADVANCED_FACE('Corps principal',(#136),#95,.T.) ;
#161=ADVANCED_FACE('Corps principal',(#160),#142,.T.) ;
#185=ADVANCED_FACE('Corps principal',(#184),#166,.T.) ;
#209=ADVANCED_FACE('Corps principal',(#208),#190,.T.) ;
#233=ADVANCED_FACE('Corps principal',(#232),#214,.T.) ;
#250=ADVANCED_FACE('Corps principal',(#249),#238,.T.) ;
#264=ADVANCED_FACE('Corps principal',(#263),#255,.F.) ;
#4=APPLICATION_PROTOCOL_DEFINITION('international standard','config_control_design',1994,#1) ;
#32=APPROVAL_DATE_TIME(#13,#21) ;
#265=MANIFOLD_SOLID_BREP('Corps principal',#50) ;
#11=CALENDAR_DATE(2023,16,10) ;
#30=CC_DESIGN_APPROVAL(#21,(#16,#6,#14)) ;
#18=CC_DESIGN_DATE_AND_TIME_ASSIGNMENT(#13,#17,(#16)) ;
#29=CC_DESIGN_DATE_AND_TIME_ASSIGNMENT(#13,#28,(#14)) ;
#17=DATE_TIME_ROLE('classification_date') ;
#28=DATE_TIME_ROLE('creation_date') ;
#27=CC_DESIGN_PERSON_AND_ORGANIZATION_ASSIGNMENT(#25,#26,(#16)) ;
#33=CC_DESIGN_PERSON_AND_ORGANIZATION_ASSIGNMENT(#25,#34,(#6)) ;
#35=CC_DESIGN_PERSON_AND_ORGANIZATION_ASSIGNMENT(#25,#36,(#6,#14)) ;
#37=CC_DESIGN_PERSON_AND_ORGANIZATION_ASSIGNMENT(#25,#38,(#5)) ;
#26=PERSON_AND_ORGANIZATION_ROLE('classification_officer') ;
#34=PERSON_AND_ORGANIZATION_ROLE('design_supplier') ;
#36=PERSON_AND_ORGANIZATION_ROLE('creator') ;
#38=PERSON_AND_ORGANIZATION_ROLE('design_owner') ;
#39=CC_DESIGN_SECURITY_CLASSIFICATION(#16,(#6)) ;
#267=SHAPE_REPRESENTATION_RELATIONSHIP(' ',' ',#48,#266) ;
#3=DESIGN_CONTEXT(' ',#1,'design') ;
#64=EDGE_CURVE('',#61,#63,#59,.T.) ;
#71=EDGE_CURVE('',#70,#61,#68,.T.) ;
#78=EDGE_CURVE('',#70,#77,#75,.F.) ;
#83=EDGE_CURVE('',#77,#63,#82,.T.) ;
#102=EDGE_CURVE('',#77,#101,#99,.T.) ;
#109=EDGE_CURVE('',#101,#108,#106,.T.) ;
#116=EDGE_CURVE('',#108,#115,#113,.T.) ;
#123=EDGE_CURVE('',#115,#122,#120,.T.) ;
#128=EDGE_CURVE('',#122,#63,#127,.T.) ;
#149=EDGE_CURVE('',#70,#148,#146,.T.) ;
#154=EDGE_CURVE('',#148,#101,#153,.T.) ;
#173=EDGE_CURVE('',#148,#172,#170,.T.) ;
#178=EDGE_CURVE('',#172,#108,#177,.T.) ;
#197=EDGE_CURVE('',#172,#196,#194,.T.) ;
#202=EDGE_CURVE('',#196,#115,#201,.T.) ;
#221=EDGE_CURVE('',#196,#220,#218,.T.) ;
#226=EDGE_CURVE('',#220,#122,#225,.T.) ;
#243=EDGE_CURVE('',#220,#61,#242,.T.) ;
#84=EDGE_LOOP('',(#85,#86,#87,#88)) ;
#129=EDGE_LOOP('',(#130,#131,#132,#133,#134,#135)) ;
#155=EDGE_LOOP('',(#156,#157,#158,#159)) ;
#179=EDGE_LOOP('',(#180,#181,#182,#183)) ;
#203=EDGE_LOOP('',(#204,#205,#206,#207)) ;
#227=EDGE_LOOP('',(#228,#229,#230,#231)) ;
#244=EDGE_LOOP('',(#245,#246,#247,#248)) ;
#256=EDGE_LOOP('',(#257,#258,#259,#260,#261,#262)) ;
#89=FACE_OUTER_BOUND('',#84,.T.) ;
#136=FACE_OUTER_BOUND('',#129,.T.) ;
#160=FACE_OUTER_BOUND('',#155,.T.) ;
#184=FACE_OUTER_BOUND('',#179,.T.) ;
#208=FACE_OUTER_BOUND('',#203,.T.) ;
#232=FACE_OUTER_BOUND('',#227,.T.) ;
#249=FACE_OUTER_BOUND('',#244,.T.) ;
#263=FACE_OUTER_BOUND('',#256,.T.) ;
#44=UNCERTAINTY_MEASURE_WITH_UNIT(LENGTH_MEASURE(0.005),#41,'distance_accuracy_value','CONFUSED CURVE UNCERTAINTY') ;
#59=LINE('Line',#56,#58) ;
#68=LINE('Line',#65,#67) ;
#75=LINE('Line',#72,#74) ;
#82=LINE('Line',#79,#81) ;
#99=LINE('Line',#96,#98) ;
#106=LINE('Line',#103,#105) ;
#113=LINE('Line',#110,#112) ;
#120=LINE('Line',#117,#119) ;
#127=LINE('Line',#124,#126) ;
#146=LINE('Line',#143,#145) ;
#153=LINE('Line',#150,#152) ;
#170=LINE('Line',#167,#169) ;
#177=LINE('Line',#174,#176) ;
#194=LINE('Line',#191,#193) ;
#201=LINE('Line',#198,#200) ;
#218=LINE('Line',#215,#217) ;
#225=LINE('Line',#222,#224) ;
#242=LINE('Line',#239,#241) ;
#2=MECHANICAL_CONTEXT(' ',#1,'mechanical') ;
#24=PERSONAL_ADDRESS(' ',' ',' ',' ',' ',' ',' ',' ',' ',' ',' ',' ',(#22),' ') ;
#55=PLANE('',#54) ;
#95=PLANE('',#94) ;
#142=PLANE('',#141) ;
#166=PLANE('',#165) ;
#190=PLANE('',#189) ;
#214=PLANE('',#213) ;
#238=PLANE('',#237) ;
#255=PLANE('',#254) ;
#7=PRODUCT_CATEGORY('part',$) ;
#9=PRODUCT_CATEGORY_RELATIONSHIP(' ',' ',#7,#8) ;
#6=PRODUCT_DEFINITION_FORMATION_WITH_SPECIFIED_SOURCE('',' ',#5,.NOT_KNOWN.) ;
#8=PRODUCT_RELATED_PRODUCT_CATEGORY('detail',$,(#5)) ;
#49=SHAPE_DEFINITION_REPRESENTATION(#40,#48) ;
#61=VERTEX_POINT('',#60) ;
#63=VERTEX_POINT('',#62) ;
#70=VERTEX_POINT('',#69) ;
#77=VERTEX_POINT('',#76) ;
#101=VERTEX_POINT('',#100) ;
#108=VERTEX_POINT('',#107) ;
#115=VERTEX_POINT('',#114) ;
#122=VERTEX_POINT('',#121) ;
#148=VERTEX_POINT('',#147) ;
#172=VERTEX_POINT('',#171) ;
#196=VERTEX_POINT('',#195) ;
#220=VERTEX_POINT('',#219) ;
#41=(LENGTH_UNIT()NAMED_UNIT(*)SI_UNIT(.MILLI.,.METRE.)) ;
#42=(NAMED_UNIT(*)PLANE_ANGLE_UNIT()SI_UNIT($,.RADIAN.)) ;
#43=(NAMED_UNIT(*)SI_UNIT($,.STERADIAN.)SOLID_ANGLE_UNIT()) ;
#45=(GEOMETRIC_REPRESENTATION_CONTEXT(3)GLOBAL_UNCERTAINTY_ASSIGNED_CONTEXT((#44))GLOBAL_UNIT_ASSIGNED_CONTEXT((#41,#42,#43))REPRESENTATION_CONTEXT(' ',' ')) ;
ENDSEC;
END-ISO-10303-21;
